منتديات كوردات
نعمة وسلام ربنا يسوع المسيح ،

عزيزي الزائر لا تكتفي بالمشاهدة والرحيل بل إنضم إلينا في منتدى العازفين المسيحيين العرب.

لتتمكن من المشاركة الإيجابية انقر على زر التسجيل للإشتراك المجاني بالمنتدى. إذا كان لديك حساباً فانقر على زر الدخول لتتمكن من الكتابة في المنتدى.

الرب يبارك حياتك

المجد في الأعالي Tabs

اذهب الى الأسفل

المجد في الأعالي Tabs

مُساهمة من طرف Meno في الإثنين مارس 24, 2008 10:35 pm

cross2
سلام ونعمة عى الاخوة والاخوات

محتاج ضرورى
tabs ترانيم
avatar
Meno

عدد الرسائل : 7
تاريخ التسجيل : 22/03/2008

http://www.meno.350.com

الرجوع الى أعلى الصفحة اذهب الى الأسفل

رد: المجد في الأعالي Tabs

مُساهمة من طرف مزاميرو في الثلاثاء مارس 25, 2008 11:14 am

أهلا بالعضو الجديد Meno معانا ، أنا عندي We Wish You A Merry Christmas وأتمنى انها تعجبك
بالمناسبة فريق التسبيح عمل الترنيمة دي ( اسمها بالعربي المجد في الأعالي ) في شريط الأطفال مزاميرو 2
اذا كنت تحب المزيد من Tabs للترانيم الانجليزية يمكنك زيارة الموقع http://www.christianguitar.org

The intro and the ending are the best parts of this song!!
HAVE FUN AND MERRY CHRISTMAS!!

Gtr I (E A D G B E) - 'Theisen'
Gtr II (E A D G B E) - 'Hoopes'
Gtr III (E A D G B E) - 'Hoopes(muted)'
Gtr IV (E A D G B E) - 'Clean'

Q=185
4/4
Intro
Gtr II
||-----------------|----------------|----------------|-----------------||
||o------3---2---3-|------3---2---3-|------3---2---3-|------3---2---3-o||
||--4--4---4---4---|-0--0---0---0---|----------------|-----------------||
||--4--------------|----------------|-0--0---0---0---|-----------------||
||o----------------|----------------|----------------|-0--0---0---0---o||
||-----------------|----------------|----------------|-----------------||
|
| Gtr I
||-----------------|----------------|----------------|-----------------||
||o----------------|----------------|----------------|----------------o||
||--4--4-4-4-4-4-4-|----------------|-7--7-7-7-7-7-7-|-----------------||
||--4--4-4-4-4-4-4-|-5--5-5-5-5-5-5-|-7--7-7-7-7-7-7-|-7--7-7-7-7-7-7--||
||o-2--2-2-2-2-2-2-|-5--5-5-5-5-5-5-|-5--5-5-5-5-5-5-|-7--7-7-7-7-7-7-o||
||-----------------|-3--3-3-3-3-3-3-|----------------|-5--5-5-5-5-5-5--||

Verse 1
Gtr III
|-----------------|-----------------|-----------------|-----------------|
|-----------------|-----------------|-----------------|-----------------|
|-4-4-4-4-4-4-4-4-|-----------------|-7-7-7-7-7-7-7-7-|-----------------|
|-4-4-4-4-4-4-4-4-|-5-5-5-5-5-5-5-5-|-7-7-7-7-7-7-7-7-|-7-7-7-7-7-7-7-7-|
|-2-2-2-2-2-2-2-2-|-5-5-5-5-5-5-5-5-|-5-5-5-5-5-5-5-5-|-7-7-7-7-7-7-7-7-|
|-----------------|-3-3-3-3-3-3-3-3-|-----------------|-5-5-5-5-5-5-5-5-|


Gtr II
|-----------------|-----------------|-----------------|-----------------|
|-----------------|-----------------|-----------------|-----------------|
|-4-4-4-4-4-4-4-4-|-----------------|-7-7-7-7-7-7-7-7-|-----------------|
|-4-4-4-4-4-4-4-4-|-5-5-5-5-5-5-5-5-|-7-7-7-7-7-7-7-7-|-7-7-7-7-7-7-7-7-|
|-2-2-2-2-2-2-2-2-|-5-5-5-5-5-5-5-5-|-5-5-5-5-5-5-5-5-|-7-7-7-7-7-7-7-7-|
|-----------------|-3-3-3-3-3-3-3-3-|-----------------|-5-5-5-5-5-5-5-5-|


Gtr III Gtr II
|-----------------|-----------------|-----------------|-----------------|
|-----------------|-----------------|-----------------|-----------------|
|-7-7-7-7-7-7-7-7-|-----------------|-----------------|-7-7-7-7-7-7-7-7-|
|-7-7-7-7-7-7-7-7-|-7-7-7-7-7-7-7-7-|-5-5-5-5-5-5-7-7-|-7-7-7-7-7-7-7-7-|
|-5-5-5-5-5-5-5-5-|-7-7-7-7-7-7-7-7-|-5-5-5-5-5-5-7-7-|-5-5-5-5-5-5-5-5-|
|-----------------|-5-5-5-5-5-5-5-5-|-3-3-3-3-3-3-5-5-|-----------------|


|-----------------|-----------------|-----------------|-----------------|
|-----------------|-----------------|-----------------|-----------------|
|-7-7-7-7-7-7-7-7-|-----------------|-----------------|-7-7-7-7-7-7-7-7-|
|-7-7-7-7-7-7-7-7-|-7-7-7-7-7-7-7-7-|-5-5-5-5-5-5-7-7-|-7-7-7-7-7-7-7-7-|
|-5-5-5-5-5-5-5-5-|-7-7-7-7-7-7-7-7-|-5-5-5-5-5-5-7-7-|-5-5-5-5-5-5-5-5-|
|-----------------|-5-5-5-5-5-5-5-5-|-3-3-3-3-3-3-5-5-|-----------------|

CHORUS
3/4
|--------|-------|------------|------------|
|--------|-------|------------|------------|
|-7------|-------|-9--9-9-9-9-|------------|
|-7------|-------|-9--9-9-9-9-|-7--7-7-7-7-|
|-5------|-------|-7--7-7-7-7-|-7--7-7-7-7-|
|--------|-------|------------|-5--5-5-5-5-|


|-----------------|------------|----------|------|
|-----------------|------------|----------|------|
|-11--11-11-11-11-|------------|----------|-7----|
|-11--11-11-11-11-|-5--5-5-5-5-|-5--5--7--|-7----|
|--9---9--9--9--9-|-5--5-5-5-5-|-5--5--7--|-5----|
|-----------------|-3--3-3-3-3-|-3--3--5--|------|


|------------|------------|------------|-------------|
|------------|------------|------------|-------------|
|-7--7-7-7-7-|------------|-9--9-9-9-9-|-------------|
|-7--7-7-7-7-|-5--5-5-5-5-|-9--9-9-9-9-|-7--7-7-7-7--|
|-5--5-5-5-5-|-5--5-5-5-5-|-7--7-7-7-7-|-7--7-7-7-7--|
|------------|-3--3-3-3-3-|------------|-5--5-5-5-5--|


|-----------------|------------|----------|------|
|-----------------|------------|----------|------|
|-11--11-11-11-11-|------------|----------|-7----|
|-11--11-11-11-11-|-5--5-5-5-5-|-5--5--7--|-7----|
|--9---9--9--9--9-|-5--5-5-5-5-|-5--5--7--|-5----|
|-----------------|-3--3-3-3-3-|-3--3--5--|------|

Break
4/4
|--------------|-------------------|-------------------|--------------------|
|----7--5--7---|-------7---5---7---|-------7---5---7-5-|-(5)-5-5-5-5-5-5-5--|
|-4--7--6--7-0-|-(0)---7---6---7---|-------7---6---7-6-|-(6)-6-6-6-6-6-6-6--|
|--------------|-----------------0-|-(0)---------------|--------------------|
|--------------|-------------------|-------------------|--------------------|
|--------------|-------------------|-------------------|--------------------|
|
| Gtr II
|--------------|-------------------|-------------------|--------------------|
|--------------|-------------------|-------------------|--------------------|
|--------------|-------------------|--7--7-7-7-7-7-7-7-|--------------------|
|------------5-|--5--5-5-5-5-5-5-5-|--7--7-7-7-7-7-7-7-|--7--7-7-7-7-7-7-7--|
|------------5-|--5--5-5-5-5-5-5-5-|--5--5-5-5-5-5-5-5-|--7--7-7-7-7-7-7-7--|
|------------3-|--3--3-3-3-3-3-3-3-|-------------------|--5--5-5-5-5-5-5-5--|

VERSE 2
Gtr II
|-----------------|-----------------|-----------------|-----------------|
|-----------------|-----------------|-----------------|-----------------|
|-4-4-4-4-4-4-4-4-|-----------------|-7-7-7-7-7-7-7-7-|-----------------|
|-4-4-4-4-4-4-4-4-|-5-5-5-5-5-5-5-5-|-7-7-7-7-7-7-7-7-|-7-7-7-7-7-7-7-7-|
|-2-2-2-2-2-2-2-2-|-5-5-5-5-5-5-5-5-|-5-5-5-5-5-5-5-5-|-7-7-7-7-7-7-7-7-|
|-----------------|-3-3-3-3-3-3-3-3-|-----------------|-5-5-5-5-5-5-5-5-|


|-----------------|-----------------|-----------------|-----------------|
|-----------------|-----------------|-----------------|-----------------|
|-4-4-4-4-4-4-4-4-|-----------------|-7-7-7-7-7-7-7-7-|-----------------|
|-4-4-4-4-4-4-4-4-|-5-5-5-5-5-5-5-5-|-7-7-7-7-7-7-7-7-|-7-7-7-7-7-7-7-7-|
|-2-2-2-2-2-2-2-2-|-5-5-5-5-5-5-5-5-|-5-5-5-5-5-5-5-5-|-7-7-7-7-7-7-7-7-|
|-----------------|-3-3-3-3-3-3-3-3-|-----------------|-5-5-5-5-5-5-5-5-|

hold......................................
|----------|------------|------------|--------|
|----------|------------|------------|--------|
|-7--------|-(7)--------|-(7)--------|-(7)----|
|----------|------------|------------|--------|
|-5--------|-(5)--------|-(5)--------|-(5)----|
|----------|------------|------------|--------|


|-----------------|-----------------|-----------------|-----------------|
|-----------------|-----------------|-----------------|-----------------|
|-7-7-7-7-7-7-7-7-|-----------------|-----------------|-7-7-7-7-7-7-7-7-|
|-7-7-7-7-7-7-7-7-|-7-7-7-7-7-7-7-7-|-5-5-5-5-5-5-7-7-|-7-7-7-7-7-7-7-7-|
|-5-5-5-5-5-5-5-5-|-7-7-7-7-7-7-7-7-|-5-5-5-5-5-5-7-7-|-5-5-5-5-5-5-5-5-|
|-----------------|-5-5-5-5-5-5-5-5-|-3-3-3-3-3-3-5-5-|-----------------|

CHORUS
3/4
|--------|-------|------------|---------------|
|--------|-------|------------|---------------|
|-7------|-------|-9--9-9-9-9-|---------------|
|-7------|-------|-9--9-9-9-9-|-7--7-7-7-7----|
|-5------|-------|-7--7-7-7-7-|-7--7-7-7-7----|
|--------|-------|------------|-5--5-5-5-5----|


|-----------------|------------|----------|------|
|-----------------|------------|----------|------|
|-11--11-11-11-11-|------------|----------|-7----|
|-11--11-11-11-11-|-5--5-5-5-5-|-5--5--7--|-7----|
|--9---9--9--9--9-|-5--5-5-5-5-|-5--5--7--|-5----|
|-----------------|-3--3-3-3-3-|-3--3--5--|------|


|------------|------------|------------|---------------|
|------------|------------|------------|---------------|
|-7--7-7-7-7-|------------|-9--9-9-9-9-|---------------|
|-7--7-7-7-7-|-5--5-5-5-5-|-9--9-9-9-9-|-7--7-7-7-7----|
|-5--5-5-5-5-|-5--5-5-5-5-|-7--7-7-7-7-|-7--7-7-7-7----|
|------------|-3--3-3-3-3-|------------|-5--5-5-5-5----|


|-----------------|------------|----------|------|
|-----------------|------------|----------|------|
|-11--11-11-11-11-|------------|----------|-7----|
|-11--11-11-11-11-|-5--5-5-5-5-|-5--5--7--|-7----|
|--9---9--9--9--9-|-5--5-5-5-5-|-5--5--7--|-5----|
|-----------------|-3--3-3-3-3-|-3--3--5--|------|

AWESOME ENDING
4/4
Gtr IV
|---------------|---------------|---------------|----------------|
|---------------|---------------|---------------|----------------|
|---------------|---------------|---------------|----------------|
|-4-4-4-4---4-4-|-4-4-----------|-4-4-4-4---4-4-|-4-4------------|
|-2-2-2-2---2-2-|-2-2---5-(5)---|-2-2-2-2---2-2-|-2-2---5-(5)----|
|---------------|-------3-(3)---|---------------|-------3-(3)----|


|---------------|---------------|---------------|---------------|
|---------------|---------------|---------------|---------------|
|---------------|---------------|---------------|---------------|
|-4-4-4-4---4-4-|-4-4-----------|---------------|---------------|
|-2-2-2-2---2-2-|-2-2---5-(5)---|-7-7-7-7---7-7-|-7-7---7-(7)---|
|---------------|-------3-(3)---|-5-5-5-5---5-5-|-5-5---5-(5)---|


Gtr I
||-----------------|----------------|----------------|---------------|
||o-0-0-0-7--5---7-|---5--5-5h=7----|-0-0-0-7--5---7-|---5--7----5---|
||--------7--6---7-|---6--6-6h=7----|-------7--6---7-|---6--7----6---|
||-----------------|----------------|----------------|---------------|
||o----------------|----------------|----------------|---------------|
||-----------------|----------------|----------------|---------------|
|
| Gtr II
||-----------------|----------------|----------------|---------------|
||o----------------|----------------|----------------|---------------|
||--4-4-4-4----4-4-|-4-4------------|-4-4-4-4----4-4-|-4-4-----------|
||--4-4-4-4----4-4-|-4-4----5-(5)---|-4-4-4-4----4-4-|-4-4----5-(5)--|
||o-2-2-2-2----2-2-|-2-2----5-(5)---|-2-2-2-2----2-2-|-2-2----5-(5)--|
||-----------------|--------3-(3)---|----------------|--------3-(3)--|


|----------------|----------------|----------------|-----------------||
|-0-0-0-7--5---7-|---5--7----5----|-0-0-0-7--5---7-|---5--7----5----o||
|-------7--6---7-|---6--7----6----|-------7--6---7-|---6--7----6-----||
|----------------|----------------|----------------|-----------------||
|----------------|----------------|----------------|----------------o||
|----------------|----------------|----------------|-----------------||
|
|----------------|----------------|----------------|-----------------||
|----------------|----------------|----------------|----------------o||
|-4-4-4-4----4-4-|-4-4------------|----------------|-----------------||
|-4-4-4-4----4-4-|-4-4----5-(5)---|-7-7-7-7----7-7-|-7-7----7-(7)----||
|-2-2-2-2----2-2-|-2-2----5-(5)---|-7-7-7-7----7-7-|-7-7----7-(7)---o||
|----------------|--------3-(3)---|-5-5-5-5----5-5-|-5-5----5-(5)----||


|----------------|----------------|----------------|----------------|
|-0-0-0-7--5---7-|---5--5-5h=7----|-0-0-0-7--5---7-|---5--7----5----|
|-------7--6---7-|---6--6-6h=7----|-------7--6---7-|---6--7----6----|
|----------------|----------------|----------------|----------------|
|----------------|----------------|----------------|----------------|
|----------------|----------------|----------------|----------------|
|
|----------------|----------------|----------------|----------------|
|----------------|----------------|----------------|----------------|
|-4-4-4-4----4-4-|-4-4------------|-4-4-4-4----4-4-|-4-4------------|
|-4-4-4-4----4-4-|-4-4----5-(5)---|-4-4-4-4----4-4-|-4-4----5-(5)---|
|-2-2-2-2----2-2-|-2-2----5-(5)---|-2-2-2-2----2-2-|-2-2----5-(5)---|
|----------------|--------3-(3)---|----------------|--------3-(3)---|


|----------------|----------------|----------------|----------------|
|-0-0-0-7--5---7-|---5--7----5----|-0-0-0-7--5---7-|---5--7----5----|
|-------7--6---7-|---6--7----6----|-------7--6---7-|---6--7----6----|
|----------------|----------------|----------------|----------------|
|----------------|----------------|----------------|----------------|
|----------------|----------------|----------------|----------------|
|
|----------------|----------------|----------------|----------------|
|----------------|----------------|----------------|----------------|
|-4-4-4-4----4-4-|-4-4------------|----------------|----------------|
|-4-4-4-4----4-4-|-4-4----5-(5)---|-7-7-7-7----7-7-|-7-7----7-(7)---|
|-2-2-2-2----2-2-|-2-2----5-(5)---|-7-7-7-7----7-7-|-7-7----7-(7)---|
|----------------|--------3-(3)---|-5-5-5-5----5-5-|-5-5----5-(5)---|

مزاميرو

عدد الرسائل : 17
تاريخ التسجيل : 19/12/2007

الرجوع الى أعلى الصفحة اذهب الى الأسفل

رد: المجد في الأعالي Tabs

مُساهمة من طرف Meno في الثلاثاء مارس 25, 2008 8:40 pm

guitar
شكرا جدا

بس انا عايز ترانيم عربى

زى كيف انسى - مبتنساش كنيستى القبطية وغيرها
avatar
Meno

عدد الرسائل : 7
تاريخ التسجيل : 22/03/2008

http://www.meno.350.com

الرجوع الى أعلى الصفحة اذهب الى الأسفل

رد: المجد في الأعالي Tabs

مُساهمة من طرف Meno في الإثنين مارس 31, 2008 10:06 am

مفغيش حد هنا بيرد ولا اية Question
avatar
Meno

عدد الرسائل : 7
تاريخ التسجيل : 22/03/2008

http://www.meno.350.com

الرجوع الى أعلى الصفحة اذهب الى الأسفل

Hi

مُساهمة من طرف مزاميرو في الإثنين مارس 31, 2008 3:36 pm

اسف يا مينو انا لسه شايف رسالتك حالا
على فكرة انا عازف كيبورد مش جيتار وحبيت اساعدك بأني جيبت لك الترنيمة دي من النت لكن للأسف مالقيتش تابس ترانيم عربي على النت
لكن لو عايز كوردات ترانيم فاحنا في الخدمة علشان دي حاجة مشتركة بين البيانو والجيتار
وعلى فكرة كوردات ترنيمة كيف أنسى موجودة على الموقع
http://www.chordat.com/Songs/p22.htm
أتمنى انها تعجبك
ربنا يباركك


عدل سابقا من قبل Admin في الإثنين نوفمبر 15, 2010 8:21 am عدل 1 مرات (السبب : تعديل الرابط إلى موقعنا الجديد)

مزاميرو

عدد الرسائل : 17
تاريخ التسجيل : 19/12/2007

الرجوع الى أعلى الصفحة اذهب الى الأسفل

رد: المجد في الأعالي Tabs

مُساهمة من طرف Meno في الإثنين مارس 31, 2008 8:07 pm

شكرا بس الموقع مش شغال معايا

وشكرا على الرد
cross2
guitar
avatar
Meno

عدد الرسائل : 7
تاريخ التسجيل : 22/03/2008

http://www.meno.350.com

الرجوع الى أعلى الصفحة اذهب الى الأسفل

شغال أكيد 100 %

مُساهمة من طرف مزاميرو في الثلاثاء أبريل 01, 2008 2:29 pm

شغال أكيد 100 %
جرب تاني

Wink

مزاميرو

عدد الرسائل : 17
تاريخ التسجيل : 19/12/2007

الرجوع الى أعلى الصفحة اذهب الى الأسفل

الرجوع الى أعلى الصفحة


 
صلاحيات هذا المنتدى:
لاتستطيع الرد على المواضيع في هذا المنتدى